Like A Hurricane Neil Young

Dm/ / / Dm/ / / C / / / C / / / Bb/ / / Bb/ / / Am/ / / C / / /

0-------------0-----------------0--0----------------------------

1--31-0----01---3--10-1-3-------1---3-1---0-1---3-------3-------

2---2---2---2---0---0---0-------2---2---2-----2-0-------0-------

2---2---2---2---0---0---0-------3---3---3-------2-------0-------

Dm                                          C                             Bb                                                 Am  C

Once I thought I saw you in a crowded, hazy bar, dancing on the light from star to star.

Dm                                         C                                  

Far across the moonbeams, I know that's who you are.

  Bb                                                        Am  C

I saw your brown eyes turning once to fire.

 

F         C   Bb          C         F              C      Bb         C   F         C    Bb                   C      

   You are like a hurricane.   There's calm in your eye    and I'm getting blown away

Bb

    There's somewhere safer where the feelings stay.

                                                           Dm*

I wanna love you but I get so blown away.

Dm* / / Dm/ / / C / / / C / / / Bb/ / / Bb/ / / Am/ / / C / / /

0-------------0-----------------0--0----------------------------

1--31-0----01---3--10-1-3-------1---3-1---0-1---3-------3-------

2---2---2---2---0---0---0-------2---2---2-----2-0-------0-------

2---2---2---2---0---0---0-------3---3---3-------2-------0-------

Mike Gradwell

Ukulele and Classical Guitar Tuition

Contact

​Tel:  01524 941548

​Mail: mike.gradwell@gmail.com

 

Follow Mike
  • w-facebook
  • w-youtube