Linger The Cranberries

Intro  (‘ooh ooh ooh ooh…’ sung over Dsus4 second and fourth times)

Dsus4/   Dsus4/   Dsus4/   Dsus4D   /   D   /   D   /   D   /   / (x4) Pause

----0-------0-------0-------0-------0-------0-------0-------0---

3-------3-------3-------3-------2-------2-------2-------2-------

2-2-----2-2-----2-2-----2-2-----2-2-----2-2-----2-2-----2-2-----

2-------2-------2-------2-------2-------2-------2-------2-------

 

F#m /   A   /   F#m /   /   /   C   /   /   /   C   /   /   /   G   /

--------------------------------0---------------0-------0-----------

2-------0-------2-------2---3---03-23-----------03-23---03-23-------

1-------1-------1---------------0---------------0-------0-------2---

2-------2-------2---------------0---------------0-------0-------0---

    D                                                      A                                                                     C

If you, if you could return, don't let it burn, don't let it fade, I'm sure I'm not being rude,

                                                                   G

But it's just your attitude, it's tearing me apart, it's ruining everything

 

     D                                                                   A           /                                        C

Oh I, I swore I would be true and honey so did you,  so why were you holding her hand.

                                                                            G

Is that the way we stand? Were you lying all the time? Was it just a game to you?

Mike Gradwell

Ukulele and Classical Guitar Tuition

Contact

​Tel:  01524 941548

​Mail: mike.gradwell@gmail.com

 

Follow Mike
  • w-facebook
  • w-youtube