Livin' On A Prayer

Intro

Am  /   /   /   Am  /   /   /   F   /   /   /   G   /   /   /

0-0-----0-0-----0-0-----0-0-------------------------------------

0---0-3-0---0-3-0---0-3-0---0-3-1---------------3---------------

0-------0-------0-------0-------0---------------2---------------

2-------2-------2-------2-------0---------------0---------------

 

0-0-----0-0-----0-0-----0-0-------------------------------------

0---0-3-0---0-3-0---0-3-0---0-3-1---------------3---------------

0-------0-------0-------0-------0---------------2---------------

2-------2-------2-------2-------0---------------0---------------

Instrumental

Am  /   /   /   F   /   G   /   C   /   F   /   G   /   /   /

0-0-----0-0-3-5-3-0-0-------0-2-3-------------------------------

0---3---0-------1-------3-------0-3-0---1-0-----3---------------

0-------0-------0-------2-------0-------0---0---2---------------

2-------2-------2-------0-------0-------2-------0---------------

 

Am  /   /   /   F   /   G   /   C   /   F   /   G   /   /   /

0-0-----0-0-3-5-3-0-0-------0-2-3-----------0-------------------

0---3---0-------1-------3-------0-3-0---1-3-----3---------------

0-------0-------0-------2-------0-------0-------2---------------

2-------2-------2-------0-------0-------2-------0---------------

Mike Gradwell

Ukulele and Classical Guitar Tuition

Contact

​Tel:  01524 941548

​Mail: mike.gradwell@gmail.com

 

Follow Mike
  • w-facebook
  • w-youtube