Losing My Religion REM

Intro                                                                                                                  

        F   /   /   /   F   /   /   /   Am  /   /   /   Am  / 

5-7-5-0-0-----------------------5-7-5-0-0-----------------------

--------1-------------------------------0-----------------------

--------0-------------------------------0-----------------------

--------2-------------------------------2-----------------------

 

        F   /   /   /   F   /   /   /   Am  /   /   /   G   / 

5-7-5-0-0-----------------------5-7-5-0-0-----------------------

--------1-------------------------------0-----------------------

--------0-------------------------------0-----------------------

--------2-------------------------------2-----------------------

Mike Gradwell

Ukulele and Classical Guitar Tuition

Contact

​Tel:  01524 941548

​Mail: mike.gradwell@gmail.com

 

Follow Mike
  • w-facebook
  • w-youtube