Love Of My Life Queen

Intro               

C   F   C   F   C7  F   C   F   C       C       F   Bb  F   Bb

----------------1---0-------------------7-------0---1---0-1-1---

0---1---0-1-1---0---1---3---1-3-0-------0-------1---1---1---1-1-

0---0---0---0-0-0---0---0---0---0-------0-------0---2---0---2---

0---2---0---2---0---2---0---2---0-------0-----------------------

 

    F   Bb  F   Bb      F       G             

5---3---1-3-0-----------------------0---2---5---

1---1---1---1-----1-3-1---1-3-1-3---3---3---3---

2---0---2---0---2-------0-------2---2---2---2---

----2-------2---3-------2-------0---0---0---0---

C                                  Am                     Dm                            G

Love of my life, you've hurt me, you've broken my heart and now you leave me.

C                C7                 F                   Dm                 Am

Love of my life can't you see? Bring it back, bring it back,

          Bb         F                        Bb      F     Dm   Gm      C                         F        

Don't take it away from me, because you don't know, what it means to me.

F       Bb  F   Bb      F       G             

5-8-3---1-3-0-----------------------0---2---5---

6---1---1---1-----1-3-1---1-3-1-3---3---3---3---

5---0---2---0---2-------0-------2---2---2---2---

----2-------2---3-------2-------0---0---0---0---

C                               Am                      Dm                          G

Love of my life don't leave me, you've taken my love, and now desert me,

C                C7                 F                  Dm                 Am

Love of my life can't you see? Bring it back, bring it back,

          Bb        F                         Bb      F     Dm    Gm     C                                      

Don't take it away from me, because you don't know, what it means to me

    C   F   C   F   CdimBb              F   F7  Bb  F

0-3-----------------3---1-0-1-------5-------6---5---------------

1---0---1---0-1-1---2---1---1---1---6---8---5---6---8---6-8-5---

0---0---0---0---0-0-3---2---2-------5-5-5-5-5-5-5-5-5-5-----5---

2---0---2---0---2-------3---3-----------------------------------

 

 

Mike Gradwell

Ukulele and Classical Guitar Tuition

Contact

​Tel:  01524 941548

​Mail: mike.gradwell@gmail.com

 

Follow Mike
  • w-facebook
  • w-youtube