Love of my Life (intro)

C   F   C   F   C7  F   C   F   C       C       F   Bb 
----------------1---0-------------------7-------0---1---
0---1---0-1-1---0---1---3---1-3-0-------0-------1---1---
0---0---0---0-0-0---0---0---0---0-------0-------0---2---
0---2---0---2---0---2---0---2---0-------0---------------

 

F   Bb      F   Bb  F   Bb      F       G
0-1-1---5---3---1-3-0-----------------------0---2---5---
1---1-1-1---1---1---1-----1-3-1---1-3-1-3---3---3---3---
0---2---2---0---2---0---2-------0-------2---2---2---2---
------------2-------2---3-------2-------0---0---0---0---

Mike Gradwell

Ukulele and Classical Guitar Tuition

Contact

​Tel:  01524 941548

​Mail: mike.gradwell@gmail.com

 

Follow Mike
  • w-facebook
  • w-youtube