Lover's Leap

Am  /   /   /   /   /   /   /   B7sus4  /   /   B7  /   /   /     

0-0-0-0-------0-0---2-----------------------2-------------------

0---------------0-------2-----2-4---4---5-------------------2---

0---------------0---------------4---------------3---3---4-------

2---------------2---------------2---------------2---------------

 

Bm  /   /   /   /   /   /   /   F#  /   /   /   F#  /   /   /     

2-------------------------------1---1-----------1---------------

2-------2-2-2---3---2-------2---2-------2---4---2---------------

2-------------------------------1---------------1---------------

----------------------------------------------------------------

 

Am  /   /   /   /   /   /   /   B7sus4  /   /   B7  /   /   /     

0-----0-0---0---0---2-----------------------2---2---------------

0---------------0-------2-------4-------5-------2-----------2---

0---------------0---------------4---------------3-------4-------

2---------------2---------------2---------------2---------------

 

F#  /   /   /   F   /   /   /   Bb  /   /   /   /   /   /   /     

1---1-----------------------------------------------------------

2-------4---2---1---1-------1---------------1---1-----------1---

1---------------0---------------2---2---3-------2-2-----3-------

----------------2---------------3---3-----------3---------------

 

Eb  /   /   /   Bb  /   /   /   F   /   /   /   Bb  /   /   /     

----------------------------------------------------------------

--------3-------1---------------1-------------------1-----------

3-----------5---2-------3---2---0-------0---0---2---------------

3---------------3---------------2---------------3---------------

 

Eb  /   /   /   Bb  /   /   /   F   /   /   /   Gm  /   /   /     

------------------------------------------------1---------------

--------3-------1-------------------------------3---------------

3-----------5---2-------3---2---0-------0---0---2---------------

3---------------3---------------2---------------0---------------

Mike Gradwell

Ukulele and Classical Guitar Tuition

Contact

​Tel:  01524 941548

​Mail: mike.gradwell@gmail.com

 

Follow Mike
  • w-facebook
  • w-youtube