Lovesong The Cure

Intro                                                                                           

Am/ / / G / / / F / / / G / / / Am/ / / G / / / F / / / G / / /     

2-----0---------0-----0---------3-----0---------0-----0---------

0----3--3-------1----3--3-------0----3--3-------1----3--3-------

0-------2-------0-------2-------0-------2-------0-------2-------

2-------0-------2-------0-------2-------0-------2-------0-------

 

Am/ / / G / / / F / / / G / / / Am/ / / G / / / F / / / G / / /     

----------------------------------------------------------------

--0--0----0-0-----0-0-----0-0-----0--0----0-0-----0-0-----0-0---

0---2---2----20-0----20-2----20-0---2---2----20-0----20-2----20-

2-------0-------2-------0-------2-------0-------2-------0-------

Am                 G                     F    G Am                       G                   F                G     

      Whenever I'm alone with you,        you make me feel like I am home again

Am                 G                     F    G Am                       G                   F                G    

      Whenever I'm alone with you,        you make me feel like I am whole again

Mike Gradwell

Ukulele and Classical Guitar Tuition

Contact

​Tel:  01524 941548

​Mail: mike.gradwell@gmail.com

 

Follow Mike
  • w-facebook
  • w-youtube