Lucy In The Sky With Diamonds (intro)

D           D7          G           Gm         

0-------0---0-------0---2-------0---1-----------

2-----------2-----------3-----------3---3-2-----

2---2-------0---0-------2---2-------2-------2---

2-----------2-----------0-----------0-----------

 

D           D7          G           Gm

0-------0---0-------0-----------0-------1---------------0---

2-----------2-----------3-----------3---3---3---3-----------

2---2-------0---0-------2---2-------2-------2---2-----------

2-----------2-----------0-----------0-----------0-----------

 

D           D7          G           Gm         

0-------0---0-------0---2-------0---1-----------

2-----------2-----------3-----------3---3-2-----

2---2-------0---0-------2---2-------2-------2---

2-----------2-----------0-----------0-----------

 

D           D7          G           Gm

0-------0---0-------0-----------0---------------------------

2-----------2-----------3-----------3---3---3---3---3---3---

2---2-------0---0-------2---2-------2---2---2---2---2---2---

2-----------2-----------0-----------0---0---0---0---0---0---