Lullaby Brahms

/   C   /   /   C   /   /   C   /   /   G7  /  

----------------------------3---2---0---0-------

0-0-3-------0-0-3-------0-3-0-----------1---3---

----0-----------0-----------0-----------2-------

----0-----------0-----------0-----------0-------

 

/   G7  /   /   G7  /   /   G7  /   /   C   /  

----------------------------2-0-----2---3-------

--0-1---------0-1---------1-1---3---1---0-------

2---2-------2---2-------2---2-------2---0-------

----0-----------0-----------0-------0---0-------

 

/   F   /   /   C   /   /   G7  /   /   C   /  

----3-------0-----------------------0-----------

----1---------1-3-------0---1---3-------3-------

0-0-0-----------0---------0-2-----------0-------

----2-----------0-----------0-----------0-------

 

/   F   /   /   C   /   /   G7  /   /   C   /  

----3-------0-----------------------------------

----1---------1-3-------0---1---0---------------

0-0-0-----------0---------0-2-------2---0-------

----2-----------0-----------0-----------0-------

 

Mike Gradwell

Ukulele and Classical Guitar Tuition

Contact

​Tel:  01524 941548

​Mail: mike.gradwell@gmail.com

 

Follow Mike
  • w-facebook
  • w-youtube