Maggie May (intro)

D   /   /   /   G   /   /   /   G   /   /   /   D   /   /   /  

--------------------------------2-------2-0-2---0---------------

----------------3---3---3-------3-------3-------2---------------

2-------2-------2-2-----2-------2-------2-------2-------2-------

2-------2-------0-------0-------0-------0-------2-------2-------

 

D   /   /   /   G   /   /   /   G   /   /   /   D   /   /   /  

--------------------------------2-------2-0-2---0---------------

----------------3---3---3-------3-------3-------2---------------

2-------2-------2-2-----2-------2-------2-------2-------2---2---

2-------2-------0-------0-------0-------0-------2-------2---2---