Malt and Barley Blues McGuinness Flint

Intro   

C / / / C / / / G / / / C / / / C / / / C / / / G / / / C / / /

-03--03-10-----------------------03--03-10----------------------

3---3---0---3----03--03-0-------3---3---0---3----03--03-0-------

0---0---0---0---2---2---02--0---0---0---0---0---2---2---02--0---

0---0---0---0---0---0---0-------0---0---0---0---0---0---0-------

 

C                                      G                                  C

Don't delay, leave today, get out now while you can

/                                             G                                C

Don't be daft, leave your half to the hard-drinking man

                  G                                          C                 

And if they start knocking, it's just the booze talking.     

F D7 G                                                C

        They've got the Malt and Barley Blues

 

Instrumental  

C / / / C / / / G / / / C / / / C / / / C / / / G / / / C / / /

-03--03-10-----------------------03--03-10----------------------

3---3---0---3----03--03-0-------3---3---0---3----03--03-0-------

0---0---0---0---2---2---02--0---0---0---0---0---2---2---02--0---

0---0---0---0---0---0---0-------0---0---0---0---0---0---0-------

Mike Gradwell

Ukulele and Classical Guitar Tuition

Contact

​Tel:  01524 941548

​Mail: mike.gradwell@gmail.com

 

Follow Mike
  • w-facebook
  • w-youtube