Mandolin Wind 2

        C                                  G                             C                                     G

Oh, I never was good with romantic words, so the next few lines come really hard

C                                                  G                      C                                             G

Don't have much but what I've got is yours, except of course my steel guitar

               D                                             C                                                C     G 

‘Cause I know you don't play, but I'll teach you one day, because I love you

C / / / C / / / G / / / G / / / C / / / C / / / G / / / G / / /

0---------0--------------------------------0--0-2---0-----------

----3-------3-0-----------------0---3-------3---3-------3-------

----------------2-------------------------------2---------------

------------------------------------------------0---------------

 

C / / / C / / / G / / / G / / / C / / / C / / / G / / / G / / /

-----------0--0-2---0-------------------------------------------

0---3-------3---3-------3-------0---3-------0-------------------

----------------2-----------------------------0-2---------------

----------------0-------------------------------0---------------

 

D / / / D / / / C / / / C / / / Am/ / / Am/ / / D / / / D / / /

----------------------------------------------------------------

532-------------320-------------320-----------------------------

2--42-----------0--20--------------20-----------2---------------

2---------------0---------------2---------------2---------------

D / / / D / / / C / / / C / / / Am/ / / Am/ / / D / / / D / / /

----------------------------------------------------------------

532-------------320-------------320-----------------------------

2--42-----------0--20--------------20-----------2---------------

2---------------0---------------2---------------2---------------

 

Mike Gradwell

Ukulele and Classical Guitar Tuition

Contact

​Tel:  01524 941548

​Mail: mike.gradwell@gmail.com

 

Follow Mike
  • w-facebook
  • w-youtube