Michelle (ending)

C            Fm                 Bb                         Ab                       G           Ab              G

Michelle,      ma belle, sont des mots qui vont très bien ensemble, très bien ensemble

        Cm        B+   Cm7     Cm6         Fm               G                  C*              

I will say the only words I know that you'll understand, my Michelle

 

C*  /   /   /   Fm  /    /    /   Bb  /   /   /   Ab  /   /   /   G   /   Ab  /   G  

--------------------------------------------------------------------------------------

0-----1-3-------4-------------------------1-------------------------------------------

0-------0-------3--------3--------2-----3-2-------0-----2-3-------2-------0-2-3---2---

0---0---0---0---1---1----1----1---3---3---3---3---1---1---1---1---0---0---1-------0---

 

        Cm        B+   Cm7     Cm6         Fm               G                  C            

I will say the only words I know that you'll understand, my Michelle

(Riff for second line and final line)

Cm  B+  Cm7 Cm6   Fm  /   /   /   G   /   /   /   C   /   /   /

--------------------------------------------------3---------------

--3---3---3---3---3---3---3---3---3---3---3---3---0---------------

0-----------------0---0---0---0---2---2---2---2---0---------------

----4---3---2-----1---1---1---1---0---0---0---0---0---------------

Mike Gradwell

Ukulele and Classical Guitar Tuition

Contact

​Tel:  01524 941548

​Mail: mike.gradwell@gmail.com

 

Follow Mike
  • w-facebook
  • w-youtube