Mr Brightside (intro and instrumental)

Intro

C   /   /   /   C/B /   /   /   C/A /   /   /   F   /   /   /  

----3---5-5-3-------3---5-5-3-------3---5-5-3-------3---5-5-3---

----------------------------------------------------------------

--0---------------0---------------0---------------0-------------

5---------------4---------------2---------------2---------------

Instrumental

C   /   /   /   F   /   /   /   Am  /   /   /   G   /   /   /  

----------------------------------------------------------------

0---0---1---3---1---3---1---0---0---0---1---0-------------------

0---------------0---------------0---------------2---0-----------

0---------------2---------------2---------------0-------4-------

 

C   /   /   /   F   /   /   /   Am  /   /   /   G   /   /   /  

----------------------------------------------------------------

0---0---1---3---1---3---1---0---0---0---1---0-------------------

0---------------0---------------0---------------2---0-----------

0---------------2---------------2---------------0--------4------