Musical Box Camberwick Green

C               G               C               G

--------------0---------------0---------------0---------------0-

3---0-------3---3---1-------3---3---0-------3---3---1-------3---

0-------0-------2--—----2-------0-------0-------2--—----2-------

0-------0-------0-------0-------0-------0-------0-------0-------

 

C               G               G               C

--------------3-2---2-3-5-------2---2-3-5-----2-3---3-5-7-5-3---

3---0-------3---3-------3---3---3-------3-3-5---0-3-----0-------

0-------0-------2-------2-------2-------2-------0-------0-------

0-------0-------0-------0-------0-------0-------0-------0-------

 

C               G               G               C

--------------3-2---2-3-5-------2---2-3-5-----2-3---3-5-3-------

3---0-------3---3-------3---3---3-------3-3-5---0-3-----3-------

0-------0-------2-------2-------2-------2-------0-------0-------

0-------0-------0-------0-------0-------0-------0-------0-------

Mike Gradwell

Ukulele and Classical Guitar Tuition

Contact

​Tel:  01524 941548

​Mail: mike.gradwell@gmail.com

 

Follow Mike
  • w-facebook
  • w-youtube