Nevermore Queen

Intro

F   /   /   /   F   /   /   /   

------0---------------0---------

----1-----1---1-----1-----1---1-

--0-----2---0-----0-----2---0---

2---------------2---------------

                  F                             Dm        

There's no living in my life anymore.

       Am                                       Bb                 F

The seas have gone dry and the rain stopped falling.

                                      Dm                     Am

Please don't you cry anymore. Can't you see?

Bb                 F           Bb                    F

Listen to the breeze, whisper to me please

          G                                           C       C7 F

Don't send me to the path of nevermore.

 

F   /   /   /   F   /   /   /   

------0---------------0---------

----1-----1---1-----1-----1---1-

--0-----2---0-----0-----2---0---

2---------------2---------------

                              Dm                   Am                                Bb             F      

Even the valleys below, where the rays of the sun were so warm and tender

                                       Dm                     Am

Now haven't anything to grow. Can't you see?

        Bb                     F               Bb                    F

Why did you have to leave me? Why did you deceive me?

       G                                            C

You send me to the path of nevermore

                 A                                       Dm     Bb  Am    Bb  Am       

When you say you didn't love me anymore  (ah, ah)

Bb                F

Nevermore, Nevermore.

Outro

F   /   /   /   F   /   /   /   F   /   /   /  

------0---------------0-------------------------

----1-----1---1-----1-----1---1-1---------------

--0-----2---0-----0-----2---0---0---------------

2---------------2---------------2---------------