New Year's Day (intro) U2

Intro (first ukulele)

Am  /   /   /   C   /   /   /   Em  /   /   /   Em  /   /   /  0-----------0-5-7-----------3-5-2-------------------------------

0---------------0---------------3-------------------------------

0---------------0---------------4-------------------------------

2---------------0---------------0-------------------------------

                                Yeah

Am  /   /   /   C   /   /   /   Em  /   /   /   Em  /   /   /  0-----------0-5-7-----------3-5-2-------------------------------

0---------------0---------------3-------------------------------

0---------------0---------------4-------------------------------

2---------------0---------------0-------------------------------

 

Am  /   /   /   C   /   /   /   G   /   /   /   G   /   /   /  0-----------0-5-7-----------3-5-2-----------------------3---2---

0---------------0---------------3-------------------------------

0---------------0---------------2-------------------------------

2---------------0---------------0-------------------------------

 

F   /   /   /   F   /   /   /   Am  /   /   /   Am  /   /   /  2-------2---3---5-------7-5-3---3-------2---3---0-----------5---

1---------------1---------------0---------------0---------------

0---------------0---------------0---------------0---------------

2---------------2---------------2---------------2---------------                                                                            

G   /   /   /   G   /   /   /   F   /   /   /   F   /   /   /   

2---------------2-------3-------5-------------------------------

3---------------3---------------5-------------------------------

2---------------2---------------5-------------------------------

0---------------0---------------5-------------------------------

 

Am  /   /   /   C   /   /   /   Em  /   /   /   Em  /   /   /  0-0-3-0---0-0-----------------------2---------------2-----------

0---------------0-0-3-0---0-0---3-3---3---3-3---3-3-----3---3-0-

0---------------0---------------4---------------4---------------

2---------------0---------------0---------------0---------------

Intro     (Second Ukulele)

Am  /   /   /   C   /   /   /   Em  /   /   /   Em  /   /   /   

0-0-3-0---0-0-----------------------2---------------2-----------

----------------0-0-3-0---0-0---3-3---3---3-3---3-3-----3---3-0-

----------------------------------------------------------------

----------------------------------------------------------------

                                Yeah

Am  /   /   /   C   /   /   /   Em  /   /   /   Em  /   /   /   

0-0-3-0---0-0-----------------------2---------------2-----------

----------------0-0-3-0---0-0---3-3---3---3-3---3-3-----3---3-0-

----------------------------------------------------------------

----------------------------------------------------------------

Am  /   /   /   C   /   /   /   G   /   /   /   G   /   /   /   

0-0-3-0---0-0-----------------------2---------------2-----------

----------------0-0-3-0---0-0---3-3---3---3-3---3-3-----3---3-0-

----------------------------------------------------------------

----------------------------------------------------------------

 

F   /   /   /   F   /   /   /   Am  /   /   /   Am  /   /   /   

--------------------------------0-0-0-0-0-0-0-0-0-0-0-0-0-0-0-0-

1-1-1-1-1-1-1-1-1-1-1-1-1-1-1-1---------------------------------

----------------------------------------------------------------

----------------------------------------------------------------

 

G   /   /   /   G   /   /   /   F   /   /   /   F   /   /   /   

----------------------------------------------------------------

3-3-3-3-3-3-3-3-3-3-3-3-3-3-3-3-1-1-1-1-1-1-1-1-1-1-1-1-1-1-1-1-

----------------------------------------------------------------

----------------------------------------------------------------

 

Am  /   /   /   C   /   /   /   Em  /   /   /   Em  /   /   /   

0-0-3-0---0-0-----------------------2---------------2-----------

----------------0-0-3-0---0-0---3-3---3---3-3---3-3-----3---3-0-

----------------------------------------------------------------

----------------------------------------------------------------

 

 

 

 

Mike Gradwell

Ukulele and Classical Guitar Tuition

Contact

​Tel:  01524 941548

​Mail: mike.gradwell@gmail.com

 

Follow Mike
  • w-facebook
  • w-youtube