Nightswimming REM

Intro

G   /   /   /   C   /   /   /   G   /   /   /   D   /   /   /  

----0-------------------------------0-----------0---------------

--3---------3---0-----------------3---------3---2---------------

2-----2-----2---0---------------2-----2-----2---2---------------

0-----------0---0---------------0-----------0---2---------------

 

Main Riff

G   /   /   /   C   /   /   /   G   /   /   /   C   /   /   /  

----0---------5-5-3-3-2-2-0---------0---------5-5-3-3-2-2-0-0---

--3-------3-----0-----------3-0---3-------3-----0---------------

2-----2---2-----0---------------2-----2---2-----0---------------

0---------0-----0---------------0---------0-----0---------------

          Night–swimming      deserves a quiet  night.           

 

A7  /   /   /   C5  /   /   /   G   /   /   /   C   /   /   /  

--0-------0-------0-----------------0---------5-5-3-3-2-2-0-0---

3---0-3-------0-3---0-3---2-0-----3---------3---0---------------

1-----1---------0-----0-------2-2-----2-----2---0---------------

2-----2---------0-----0---------0-----------0---0---------------

 

                            The photograph on the dashboard,

Mike Gradwell

Ukulele and Classical Guitar Tuition

Contact

​Tel:  01524 941548

​Mail: mike.gradwell@gmail.com

 

Follow Mike
  • w-facebook
  • w-youtube