No Time To Die Billie Eilish

Intro

Em  /   /   /   C   /   /   /   A7  /   /   /   B7  /   /   /  

------------2---------------2---------------2-------------------

0---2---3---3---0---2---3---3---0---2---3---3-------0---2-------

4---4---4---4---0---0---0---0---1---1---1---1---3---------------

--0---0---0---0---0---0---0---0---0---0---0---0---4---4---------

 

Em  /   /   /   C   /   /   /   A7  /   /   /   B7  /   /   /  

------------2---------------2---------------2-------------------

0---2---3---3---0---2---3---3---0---2---3---3-------------------

4---4---4---4---0---0---0---0---1---1---1---1---3---------------

--0---0---0---0---0---0---0---0---0---0---0---0-4---------------