Notre Dame Fight Song

Bb  /   /   /   F   /   Dm  /   F   /   C   /   F   /   /   /  

5---8---7---5---3---0-----------0-3---1-0---------333-333-1-0---

6---6---6---6---1---1---1---3---1-------0---3---1-------------3-

5---5---5---5---0---0---2-------0-------0-------0---------------

----------------2---2---2-------2-------0-------2---------------

 

F   /   /   /   C   /   /   /   C   /   /   /   F   /   /   /  

0-----------0---1-1---0-1-------1-1---1-0---1---3-3---2-3-------

1-------4-------0-------0-------0-------0-------1-------1-------

0-------0-------0-------0-------0-------0-------0-------0-------

2-------2-------0-------0-------0-------0-------2-------2-------

 

Bb  /   /   /   F   /   Dm  /   G   /   /   /   G   /   C   /  

5---8---7---5---3---0-----------0-------0---------------3-------

6---6---6---6---1---1---1-------3-3---2-3---3---2-3-----0-------

5---5---5---5---0---0---2-------2-------2-------2-------0-------

----------------2---2---2-------0-------0-------0-------0-------

 

F   /   /   /   C   /   /   /   C   /   /   /   F   /   /   /  

0-0---0-----0---1-1---0-1-------1-1---1-0---1---3-3---2-3-------

1-------4-------0-------0-------0-------0-------1-------1-------

0-------0-------0-------0-------0-------0-------0-------0-------

2-------2-------0-------0-------0-------0-------2-------2-------

 

Repeat from start and finish with this last line...

 

Bb  /   /   /   F   /   Dm  /   F   /   C   /   F   /   /   /  

5---8---7---5---3---0-----------0-3---1-0-----------------------

6---6---6---6---1---1---1---3---1-------0---3---1---------------

5---5---5---5---0---0---2---2---0-------0-------0---------------

----------------2---2---2---2---2-------0-------2---------------

Mike Gradwell

Ukulele and Classical Guitar Tuition

Contact

​Tel:  01524 941548

​Mail: mike.gradwell@gmail.com

 

Follow Mike
  • w-facebook
  • w-youtube