O Holy Night

C  /  /  /  F  /  C  /  /  /  C  /  G  /  C  / 

------------0-0--03-----------------------------

0--0-03----31--1--0-----3-30-----0-13--1--------

0--0--0-----0--0--0-----0--0-20--0--2--2-20-----

0--0--0-----2--2--0-----0--0--0--0--0--0--0-----

 

C  /  /  /  F  /  C  /  /  /  Em /  B7 /  Em / 

------------0-0--03-----------2----02--3-2------

0--0-03----31--1--0-----3-32-03--3--2--2-------3

0--0--0-----0--0--0-----0--0--4--4--3--3--4-----

0--0--0-----2--2--0-----0--0--0--0--2--2--0-----

 

G  /  /  /  C  /  /  /  G  /  /  /  C  /  /  / 

---0--------0--3--0--------0--------0--3--------

3--3-----3--0-30-00--3-33--3-----3--0-30-03-----

2--2--2--2--0--0--0--0--2--2--2-----0--0--0-----

0--0--0--0--0--0--0--0--0--0--0-----0--0--0-----

 

Am /  /  /  Em /  /  /  Dm /  /  /  Am /  /  / 

3--------2-02--------2--5-------00-03-----3----3

0-----------3-----------1-----------0-----0-----

0-----------4-----------2-----------0-----0-----

2-----------0-----------------------2-----2-----

 

C  /  G  /  C  /  F  /  C  /  G  /  C  /  /  /   

7-----5-----3--------2-0---------0-------------3

0-----3----30-----1-----3-------3--33-----------

0-----2-----0-----0-----0-----2-----0-----------

0-----0-----0-----2-----0-----0-----0-----------

 

G  /  /  /  C  /  F  /  C  /  G  /  C  /  /  /  

5-----------X-----8--5--3--------2353-----------

3--------3--0-----5-----0-----3-----0-----------

2-----------0-----5-----0-----2-----0-----------

0-----------0-----5-----0-----0-----0-----------

 

Mike Gradwell

Ukulele and Classical Guitar Tuition

Contact

​Tel:  01524 941548

​Mail: mike.gradwell@gmail.com

 

Follow Mike
  • w-facebook
  • w-youtube