Ode To Joy

D               G               D               A       

------------0---0-----------------------------------------------

2---2---3-------3---3---2---0-----------0---2---2-----0-0-------

2---------------2---------------2---2-----------1---------------

2---------------0---------------2---------------2---------------

 

D               G               D               A       D  

------------0---0-----------------------------------------------

2---2---3-------3---3---2---0-----------0---2---0---------------

2---------------2---------------2---2-----------1-----2-2-------

2---------------0---------------2---------------2-------2-------

 

A       D       A       D       A       F#9     G       A      

--------------------------------------------------------0-------

0---0---2-------0---2-3-2-------0---2-3-2-----------0---0-------

1-------2---2---1-------2---2---1-------4---4---2-------1-------

2-------2-------2-------2-------2-------3-------4-------2-------

 

D               G               D               A      

------------0---0-----------------------------------------------

2---2---3-------3---3---2---0-----------0---2---2-----0-0-------

2---------------2---------------2---2-----------1---------------

2---------------0---------------2---------------2---------------

 

D               G               D               A       D  

------------0---0-----------------------------------------------

2---2---3-------3---3---2---0-----------0---2---0---------------

2---------------2---------------2---2-----------1-----2-2-------

2---------------0---------------2---------------2-------2-------

Mike Gradwell

Ukulele and Classical Guitar Tuition

Contact

​Tel:  01524 941548

​Mail: mike.gradwell@gmail.com

 

Follow Mike
  • w-facebook
  • w-youtube