Ode To My Family The Cranberries

Intro                                                The Cranberries play in D i.e. capo on 2nd fret

        C                         Am                      Em                      F               (x2)    

Doo do do doo,   doo do do doo,   doo do do doo,   doo do do doo  

 

C / / / C / / / Am/ / / Am/ / / Em/ / / Em/ / / F / / / F / / /

3-----3---3-----3-----3---3-----2-----2---2-----3---------------

0-0----0----0---0-0----0----0---3-3----3----3---1-1---353-353-35

0---0----0----0-0---0----0----0-4---4----4----4-0---0-----------

0---------------2---------------0---------------2---------------

C            Am                       Em            F       G              C

    Understand the things I say, don't turn away from me

                        Am                    Em            F             G    C

‘Cause I spent half my life out there, you wouldn't disagree

                       Am                              Em                    F           G               C

D'you see me,       d'you see, do you like me, do you like me standing there

                    Am                                Em                    F                    G           C

D'you notice,    d'you know, do you see me, do you see me, does anyone care

 

              Am                  Em                              F        G        C

Unhappiness, was when I was young, and we didn't give a damn

                          Am                Em                   F         G      C

'Cause we were raised, to see life as fun and take it if we can

                 Am                              Em                    F                     G                C

My mother,      my mother she’d hold me, she’d hold me, when I was out there

               Am                        Em                     F                      G            C*

My father,      my father, he liked me, oh he liked me, does anyone care

C*/ / / C / / / Am/ / / Am/ / / Em/ / / Em/ / / F / / / F / / /

3-----3---3-----3-----3---3-----2-----2---2-----3---------------

0-0----0----0---0-0----0----0---3-3----3----3---1-1---353-353-35

0---0----0----0-0---0----0----0-4---4----4----4-0---0-----------

0---------------2---------------0---------------2---------------

Mike Gradwell

Ukulele and Classical Guitar Tuition

Contact

​Tel:  01524 941548

​Mail: mike.gradwell@gmail.com

 

Follow Mike
  • w-facebook
  • w-youtube