Oh You Pretty Things David Bowie

Intro

E   /   /   /   F#  /   /   /   E   /   /   /   D   /   C   /  

--------------------------------------------------0-------------

4---7-----------6---9-----------4---7-------------2-----3---3---

4---4-----------6---6-----------4---4-----------2-----2-0---0---

4---4-----------6---6-----------4---4-------------------0---0---

 

E   /   /   /   F#  /   /   /   E   /   /   /   D   /   C   /  

--------------------------------------------------0-------------

4---7-----------6---9-----------4---7-------------2-----3---3---

4---4-----------6---6-----------4---4-----------2-----2-0---0---

4---4-----------6---6-----------4---4-------------------0---0---

 

C6  /   C   /   C6  /   C   /   C6  /   C   /   C6  /   C   /  

0---0-----------0---0-----------0---0-----------0---0---3-------

0---0---3---3---0---0---3---3---0---0---3---3---0---0---0-------

0---0---0---0---0---0---0---0---0---0---0---0---0---0---0-------

0---0---0---0---0---0---0---0---0---0---0---0---0---0---0-------