Only You (intro & instrumental)

Intro    

G   /   /   /   G   /   /   /   C   / G /   /   C   / G /   /   (x2)

2-3-5-2---------2-3-5-2---------3-2-------------3-2-------------

------------------------------------3---------------3-----------

--------------------------------------2---------------2---------

----------------------------------------------------------------

Instrumental

G   /   /   /   C   / G /   /   C   / G /   /   C   / G /   /   (x2)

2-------5-2-----3-2-------------3-2-------------3-2-------------

--3-----------------3---------------3---------------3-----------

----------------------2---------------2---------------2---------

----------------------------------------------------------------

Mike Gradwell

Ukulele and Classical Guitar Tuition

Contact

​Tel:  01524 941548

​Mail: mike.gradwell@gmail.com

 

Follow Mike
  • w-facebook
  • w-youtube