Over The Hills And Far Away

Verse

  G   /   /   /   C   /   /   /   G   /   /   /   D   /   /   /  

------2-------2-----------------------2-------2---3---5---0-----

--3-------3-------3---0---0-------3-------3---------------------

2-------------------------------2-------------------------------

----------------------------------------------------------------

 

  G   /   /   /   C   /   /   /   Am  /   /   /   D   /   /   /  

------2-------2-----------3-------------------2---3---5---0-----

--3-------3-------3---0-----------0-----------------------------

2-------------------------------------2-0-2---------------------

----------------------------------------------------------------

 

Chorus

  G   /   /   /   C   /   /   /   G   /   /   /   D   /   /   /  

--5-----3-2---0-----------------5-5-----3-2-------3---5---0-----

------------------3---0---0-------------------3-----------------

----------------------------------------------------------------

----------------------------------------------------------------

 

  G   /   /   /   C   /   /   /   Am  /   /   /   D   /   /   /  

5-5-----3-2---0-----------3-------------------2---3---5---0-----

------------------3---0-----------0-----------------------------

--------------------------------------2-0-2---------------------

----------------------------------------------------------------

 

Mike Gradwell

Ukulele and Classical Guitar Tuition

Contact

​Tel:  01524 941548

​Mail: mike.gradwell@gmail.com

 

Follow Mike
  • w-facebook
  • w-youtube