Pachelbel's Canon

C       G       Am      Em      F       C       F       G     

----------------------------------------------------------------

0-------3---------------0-------1-------0-------1-------3-------

0-------2-------0-------4-------0-------0-------0-------2-------

0-------0-------2-------0-------2-------0-------2-------0------

 

C       G       Am      Em      F       C       F       G     

7-------5-------3-------2-------0---------------0-------2-------

0-------3-------0-------3-------1-------3-------1-------3-------

0-------2-------0-------4-------0-------0-------0-------2-------

0-------0-------2-------0-------2-------0-------2-------0-------

C       G       Am      Em      F       C       F       G     

3---7---X-------0---3---7-------0---------------0-------2-------

0-------7-------0-------7-------1---1---3---0---1---1---3---3---

0-------7---7---0-------7---7---0-------0-------0-------2-------

0-------7-------2---------------2-------0-------2-------0-------

 

C       G       Am      Em      F       C       F       G     

3-2-3-------0-2-3-2-3-7-X-7-X-Z-8-7-5-8-7-5-3-2-0-----3-2-3-5-2-

0-----0-3-3-----0-------7-------5-------0-------1-3-1---3-------

0-------2-------0-------7-------5-------0-------0-------2-------

0-------0-------2---------------5-------0-------2-------0-------

 

C       G       Am      Em      F       C       F       G     

3-2-3-------0-2-3-2-3-7-X-7-X-Z-8-7-5-8-7-5-3-2-0---------------

0-----0-3-3-----0-------7-------5-------0-------1-3-1-0---0-1---

0-------2-------0-------7-------5-------0-------0-------2-----2-

0-------0-------2---------------5-------0-------2-------0-------

 

C       G       Am      Em      F       C       F       G     

----------------------------------------------------------------

0-------3---------------0-------1-------0-------1-------3-------

0-------2-------0-------4-------0-------0-------0-------2-------

0-------0-------2-------0-------2-------0-------2-------0-------

 

C       /

3---------------

0---------------

0---------------

0---------------

Mike Gradwell

Ukulele and Classical Guitar Tuition

Contact

​Tel:  01524 941548

​Mail: mike.gradwell@gmail.com

 

Follow Mike
  • w-facebook
  • w-youtube