Pastoral Beethoven

F   /   /   F   /   /   F   /   /   F   /   /   F   /   /   

0-------------------3---0-------------------------------0---

1-----------1-----------1-----------1-----------1-----------

0-----------0-----------0-----------0-------0---0-----------

2-----------2-----------2-----------2-----------2-----------

 

F   /   /   C7  /   /   C7  /   /   C7  /   /   C7  /   /   

3-------0---1-----------------------1-------------------3---

1-----------0-------------------3---0-----------3-----------

0-----------0-----------------------0-----------0-----------

2-----------0-----------------------0-----------0-----------

 

F   /   /   Dm  /   /   Gm  /   /   C7  /   /   F   /   /   

0-------------------0---------------------------------------

1-----------1-----------3-----------0---------------1-------

0-----------2-----------2-------2---0-------0---0-----------

2-----------2-----------0-----------0-----------2-----------

Mike Gradwell

Ukulele and Classical Guitar Tuition

Contact

​Tel:  01524 941548

​Mail: mike.gradwell@gmail.com

 

Follow Mike
  • w-facebook
  • w-youtube