P.C. McGarry


C
3-3-3-------3-3-3-------3-3-3-5-3-1-0---
--------------------------------------3-
----0-----------0-----------0-----0-----
----------------------------------------
F           C           F           C
----0-0-----------------0-----0-----------------
1-------3-1-3-----------1-------3-1-3-----------
0-----------0-----0---0-0-----------0-----0-----
2-----------0-----------3-----------0-----------
F                       G           C
------------0---------0-------2-----3-----------
1-----1---3-1---1-3-----3-----------0-----------
0-----------0-----------2-----------0-----------
2-----------2-----------0-----------0-----------
Bb          F           Bb          C
5-----------3-----0-----1---0-------------------
6-----6-----1-----------1-----3---1-0-----------
5-----------0-----------2-----------0-----------
------------------------------------0-----------
F           C           F           C
----0-0-----------------0-----0-----------------
1-------3-1-3-----------1-------3-1-3-----------
0-----------0-----0---0-0-----------0-----0-----
2-----------0-----------3-----------0-----------
F           C           F
3-----3---5-3---1-0-----------0-----------------
1-----------0---------3-1-----1-----1-----------
0-----------0-----------0-----0-----0-----------
2-----------0-----------2-----2-----2-----------

Intro C
F                   C            F               C        F                   G C
   Here comes the policeman, the big, friendly policeman, P.C. McGarry number 452
Bb         F             Bb                 C
Lost dogs, thick fogs or don’t know what to do?
F               C            F               C        F      C            F
   Then get a policeman, the big, friendly policeman, P.C. McGarry number 452
F                   C            F               C        F                   G C
   Here comes the policeman, the big, friendly policeman, P.C. McGarry number 452
Bb          F              Bb          C
Lost a key, cat up a tree, baby lost a shoe?
F             C              F               C        F      C            F
   Then get a policeman, the big, friendly policeman, P.C. McGarry number 452
F                    C            F               C        F                   G C
   They’ve got the policeman, the big, friendly policeman, P.C. McGarry number 452
Bb            F             Bb              C
Swarming bees in the tress, swarming people too
F                    C            F               C        F      C            F
   They’ve got the policeman, the big, friendly policeman, P.C. McGarry number 452

Mike Gradwell

Ukulele and Classical Guitar Tuition

Contact

​Tel:  01524 941548

​Mail: mike.gradwell@gmail.com

 

Follow Mike
  • w-facebook
  • w-youtube