People Are Strange The Doors

Intro play notes A G F E

Dm                         Gm                  Dm          Gm           Dm  A                Dm

People are strange, when you’re a stranger,  faces look ugly when your alone

Dm                Gm        Dm                   Gm        Dm                 A    Dm

Women seem wicked, when you’re unwanted, streets are uneven    when you’re down

 

                     A            F                                 A  A  A                      A   A     A

When you’re strange, faces come out of the rain.     When you’re strange

F                                       A  A   A                    A  A     A                   A   A     A

No-one remembers your name      When your strange.  When your strange 

                                (play notes A G F E)

When your strange

Instrumental verse

Dm  /   /   /   Gm  / Dm/   /   Gm  / Dm/   /   A   / Dm  /  

-------------------0---------------0---------------------0----

---0--1---------3---3-1---------3---3-2---------0--10-----3--1

2---2-2-----2---2---2-2-----2---2---2-2-----2---1-----2-------

2---2-2-----2---0---0-2-----2---0---0-2-----2---2-----2-------

 

Dm  /   /   /   Gm  / Dm/   /   Gm  / Dm/   /   A   / Dm  /  

-------------------0------------------------------------------

---0--1---------3---3-1---------3-3-3-1-----1-----0-0---------

2---2-2-----2---2---2-2-----2---2-2-2-2-----2-----1-1-2-------

2---2-2-----2---0---0-2-----2---0-0-0-2-----2---2-----2-------