Perfect Day (intro and instrumental)

Intro 

E7/ / E7/ / Am/ / Am/ / E7/ / E7/ / Am/ / Am/ /

2-------0-2-3-----------2-------0-2-3-----------

0-----4-----0-----------0-----4-----0-----------

2-----------0-----------2-----------0-----------

1-----------2-----------1-----------2-----------

Instrumental

F#m /   /   A   /   /   Dmaj7   /   D   /   /   (x3)

4---4---4---4---4---4---4---2-------2-------2---

5-----7-----5-----7-----2-------5-------5-------

6-----------4-----------2-----------------------

------------------------2-----------------------