Postman Pat

Postman Pat

C / / / C / / / C / / / C / Am/ / / Am/ / / F / / / G / / /

----0-------0-------0-032---0-------------------0-----------

0-3-0---0-3-0---0-3-0---0-3-0---------------1-3---1-0-------

0---0---0---0---0---0---0---0---------------0-------2---2---

0---0---0---0---0---0---0---2---------------2-------0-------

 

F / / / G / / / F / / / G / / / C / / / C / / / C / / / C /

----0---------------0-------------------------------0-------

1-3---1-0-------1-3---1-0-----------------------0-3-0---0-3-

0-------2---2---0-------2-2-0-2-0---------------0---0---0---

2-------0-------2-------0-------0---------------0---0---0---

 

/ / C / / / C / Am/ / / Am/ / / F / / / G / / / F / / / G /

0-------0-032---0-------------------0---------------0-------

0---0-3-0---0-3-0---------------1-3---1-0-------1-3---1-0---

0---0---0---0---0---------------0-------2---2---0-------2---

0---0---0---0---2---------------2-------0-------2-------0---

 

/ / F / / / G / / / C / / / C / / / F / / / G / / / C / / /

--------0---------------------------0---0-1-2-----0---------

----1-3---1-0-----------------------1-4-----3-------3---0---

2---0-------2-2-0-2-0---------------0-------2-------0-------

----2-------0-------0---------------2-------0-------0-------

 

Am/ / / F / / / G / / / C / Dm/ Cdim7Em/ Am/ / / Am/ / / Am/    

--------------0-------------------------0---------------3-3-

--------1-0-1---3---1---0---1---2---3---0-------0-------0---

0-------0-------2-----2-0---2---3---4---0-------0-------0---

2-------2-------0-------0---------------2-------2-------2---

 

/ / Am/ / / F / / / Dm/ / / G / / / G / / / C / / / C / / / 

232-0---------------0-------2-3-0-2-------------0-------0---

----0---0-3-1-------1-------3-------3-------0-3-0---0-3-0---

----0-------0-------2-------2-------2-------0---0---0---0---

----2-------2-------2-------0-------0-------0---0---0---0---

 

C / / / C / Am/ / / Am/ / / F / / / G / / / F / / / G / / /

----0-032---0-------------------0---------------0-----------

0-3-0---0-3-0---------------1-3---1-0-------1-3---1-0-------

0---0---0---0---------------0-------2---2---0-------2---2---

0---0---0---2---------------2-------0-------2-------0-------

 

F / / / G / / / C / / / C / / / F / / / G / / / C / / / C /

----0-------------------------------0-----------3-----------

1-3---1-0-----------------------1-3---1-0-------0-----------

0-------2-2-0-2-0---------------0-------2-2-0-2-0-----------

2-------0-------0---------------2-------0-------0-----------

 

Mike Gradwell

Ukulele and Classical Guitar Tuition

Contact

​Tel:  01524 941548

​Mail: mike.gradwell@gmail.com

 

Follow Mike
  • w-facebook
  • w-youtube