Ride A White Swan

G   /   /   /   G   /   /   /   G   /   /   /   G   /  

--------------------------------------------------------

3---3-------0---3---0---3---0---3---3-------0---3-------

2---2------2-------2-------2----2---2------2------------

0---0---------------------------0---0-------------------

 

/   /   G   /   /   /   C   /   /   /   G   /   /   /   D6  /  

------------------------------------------------0---2---2-------

----0---3---3--33--33--30---3---3--33---3---3--3--------2-------

2--2----2---------------0---------------2---------------2-------

--------0---------------0---------------0---------------2-------

 

/   /   G   /   /   /   C   /   /   /   G   /   D   /   G   /  

----------------------------------------2---2---0-0-------------

----0---3---3--33--33--30---3---3--33---3-------2-------3-------

2--2----2---------------0---------------2-------2-------2-------

--------0---------------0---------------0-------2-------0-------

Mike Gradwell

Ukulele and Classical Guitar Tuition

Contact

​Tel:  01524 941548

​Mail: mike.gradwell@gmail.com

 

Follow Mike
  • w-facebook
  • w-youtube