Robinson Crusoe

C           G           F     C     G
------------------------3-2-0-------------------
0-----0---1-3-----3-----1-----3---0---0---------
0-2-0-0-----2-----2-----0-----0-----2---2-2-----
0-----0-----0-----0-----2-----0-----0-----0-----

 

C           G           F     C     G     C
------------------------3-2-0-------------------
0-----0---1-3-----3-----1-----3---0---0---------
0-2-0-0-----2-----2-----0-----0-----2---2-0-----
0-----0-----0-----0-----2-----0-----0-----0-----

 

F     C     G           F     C     G     C
3-2-0-------7-----7-----3-2-0-------------------
1---------8-7---X-7-----1-----3---0---0---------
0-----0-----7-----7-----0-----0-----2---2-0-----
2-----0-----------------2-----0-----0-----0-----


X = 10

Mike Gradwell

Ukulele and Classical Guitar Tuition

Contact

​Tel:  01524 941548

​Mail: mike.gradwell@gmail.com

 

Follow Mike
  • w-facebook
  • w-youtube