Rock Lobster

  Cm              G#      G       Cm              G#      G     

----------------------------------------------------------------

3-----------------4---4---3-----3-----------------4---4---3-----

--0---2---3---0-----3-------------0---2---3---0-----3-----------

----------------------------------------------------------------

  Cm              G#      G       Cm              G#      G     

------------------------------------------------------------------

3-----------------4---4---3-----3-----------------4---4---3-------

--0---2---3---0-----3-------------0---2---3---0-----3-------------

------------------------------------------------------------------

Mike Gradwell

Ukulele and Classical Guitar Tuition

Contact

​Tel:  01524 941548

​Mail: mike.gradwell@gmail.com

 

Follow Mike
  • w-facebook
  • w-youtube