Rockabye (intro and outro)

Intro

Am/ / / F / / / G / / / C / / / Am/ / / F / / / G / / / C / / /

0---0-0-------------------------0---0-0-------------------------

0---0-0-1---1-1-3---3-3-0---0-0-0---0-0-1---1-1-3---3-3-0-------

0---0-0-0---0-0-2---2-2-0---0-0-0---0-0-0---0-0-2---2-2-0-------

2---2-2-2---2-2-0---0-0-0---0-0-2---2-2-2---2-2-0---0-0-0-------

Outro     

Am/ / / F / / / G / / / C / / / F / / / Dm/ / / E7/ / / E7/ / / 

3---320-------3-2---20----------0---0---------------------------

0-------1-------3-----3-3---0---1----31-1-------0---------------

0-------0-------2-------0-------0-------2---2---2---------------

2-------2-------0-------0-------2-------2-------1---------------

Mike Gradwell

Ukulele and Classical Guitar Tuition

Contact

​Tel:  01524 941548

​Mail: mike.gradwell@gmail.com

 

Follow Mike
  • w-facebook
  • w-youtube