Roobarb and Custard

C / / C / / C / / C / / C / / C / / G / / G / /
------------------------------1---1-------------
0-1-3-------0-1-3-------0-1-3-------3-----------
0-----3-----0-----3-----0-----------2-----------
0-----------0-----------0-----------0-----------

 

C / / C / / C / / C / / C / / G / / C / / C / /
------------------------------------------------
0-1-3-------0-1-3-------0---0---0---------------
0-----3-----0-----3-----0-----2---2-0-----------
0-----------0-----------0-----0-----0-----------

 

C / / C / / C / / C / / C / / C / / G / / G / /
------------------------------1---1-------------
0-1-3-------0-1-3-------0-1-3-------3-----------
0-----3-----0-----3-----0-----------2-----------
0-----------0-----------0-----------0-----------

 

C / / C / / C / / C / / C / / G / / C / / C / /
------------------------------------------------
0-1-3-------0-1-3-------0---0---0---------------
0-----3-----0-----3-----0-----2---2-0-----------
0-----------0-----------0-----0-----0-----------

 

F / / F / / Dm/ / Dm/ / C / / C / / F / / G / /
0-----0-------0---0-----------------------------
1-1---1-1-------3---1---3-----3-----1---2-3-----
0-----0-----2-----------0-0---0-0---0-----2-----
2-----2-----2-----------0-----0-----2-----0-----

 

C / / C / / C / / C / / C / / C / / G / / G / /
------------------------------1---1-------------
0-1-3-------0-1-3-------0-1-3-------3-----------
0-----3-----0-----3-----0-----------2-----------
0-----------0-----------0-----------0-----------

 

C / / C / / C / / C / / C / / G / / C / / C / /
------------------------------------------------
0-1-3-------0-1-3-------0---0---0---------------
0-----3-----0-----3-----0-----2---2-0-----------
0-----------0-----------0-----0-----0-----------

Mike Gradwell

Ukulele and Classical Guitar Tuition

Contact

​Tel:  01524 941548

​Mail: mike.gradwell@gmail.com

 

Follow Mike
  • w-facebook
  • w-youtube