Run For Home Lindisfarne

Intro  G     /       Em   /       C     /          D      /          

         Aaaaaaah  aaaaaaah  aaaaah  ah  aaaaaaah                 

G   /   /   /   G   /   /   /   G   /   /   /   G   /   /   /  

2---2---2---2---2---2---3-2-0---0-----2-2---2---2---2---3-2-0---

3---3---3---3---3---3---------3-3-------3---3---3---3---------3-

2---2---2---2---2---2-----------2-------2---2---2---2-----------

0---0---0---0---0---0-----------0-------0---0---0---0-----------

        /                                    C                         

 I've travelled the land with a guitar in my hand

            Am         D                     G*

And an eye ever open for some fun

G*  /   /   /   G   /   /   /    

--------------------------------

3-------2-------0-------2-------

--2---2---2---2---2---2---2---2-

----4---4---4---4---4-------4---

       /                                           C                                           

I've made some mistakes had my share of the breaks,

               Am                                          D*

Seen the boys on the make and on the bum

D*  /   /   /   D   /   /   /   

--5-----3-------2-------0-------

--------------------------------

2-----2-----2-------------------

--------------------------------

G                                      Em                   C                                      D

Run for home, run as fast as I can, oh oh running man, running for home

G                                      Em                   C                                      D

Run for home, run as fast as I can, oh oh running man, running for home

Mike Gradwell

Ukulele and Classical Guitar Tuition

Contact

​Tel:  01524 941548

​Mail: mike.gradwell@gmail.com

 

Follow Mike
  • w-facebook
  • w-youtube