Save Me  Queen

Verse

  C       G       Am      C       F       C       Dm      /

----------------------------------0---3-------0-----------------

--0---3-------0-------0-----------1-----3-------1-----1-------1-

--0-------2-----0---0---0---0-0-0-0-0-------0-------2---2---2---

0-0-------0-------2-------0-------2-------0-------2-------2-----

 

  F       G       C       F       C       /       G       /

--0---0-2-2---2-3-3-------0---0---------------0---------2-------

3-1-------3-------3-3-3-0-1-----3-3---0---------3-0-----------3-

--0-0-----2-2-----0-------0-0-----0-----0---0-------2-------2---

--2-------0-------0-------2-------0-------0-------0-------------

 

  Dm      /   C   F       /       Dm      F   C   G       /

----------------------------------------------------------------

----------------------------------------0-1---0-----------------

0-2-----2-2---0-----------------0-2-0-2---0---0---2-------------

--2-------2---0---2-----0-2-------2-------2---0---0-------------

 

  F       G       C       F       C       F       C       /

--0---0-2-2---2-3-3-------0---0---------------------------------

3-1-------3-------3-3---0-1-----3-3---0-------------------------

--0-0-----2-2-----0-------0-------0-----0-0---0---0-------------

--2-------0-------0-------2-------0-------2-------0-------------

 

Chorus

  G       D       G       /       /       Em      D       C   D

----------0-------5-------2-0---------0-2-2-----0-0-------------

--3-------2-------3-------3---3---3-------3-------2-2-----0---2-

--2---2---2---2---2-------2-----2-2-------4-------2---2---0---2-

--0-------2-------0-------0-------0-------0-------2-------0---2-

 

  G       D       G       C       G       C7      G       /  

----------0-------5---3-2-3-------2-3-2---1-0-------------------

--3-------2-------3-------0-----3-3-----3-1---3-0-3-------------

--2---2---2---2---2-------0-------2-------0-------2-------------

--0-------2-------0-------0-------0-------0-------0-------------

 

Mike Gradwell

Ukulele and Classical Guitar Tuition

Contact

​Tel:  01524 941548

​Mail: mike.gradwell@gmail.com

 

Follow Mike
  • w-facebook
  • w-youtube