Scotland The Brave

C   /   /   C   /   /   /   C   /   /   /   C   /   /   /   /  

--------------------------------3-------3-----2-3---------------

----------------0-------0---3---0---------------0---3---0-------

0-------0-----2-0---0-----------0---------------0-----------0---

0---------------0---------------0---------------0---------------

 

F   /   /   /   C   /   /   /   G7  /   /   /   G7  /   /   /  

--------0-------------------------------------------------------

1-------------1-0---3---0---------------3-----3-3---1---0-------

0---------------0-----------0---2---------------2-----------2---

2---------------0---------------0---------------0---------------

 

C   /   /   /   C   /   /   /   C   /   /   /   C   /   /   /  

--------------------------------3-------3-----2-3---------------

----------------0-------0---3---0---------------0---3---0-------

0-------0-----2-0---0-----------0---------------0-----------0---

0---------------0---------------0---------------0---------------

 

F   /   /   /   C   /   /   /   G7  /   F   /   C   /   /   /  

--------0-------------------------------------------------------

1-------------1-0---3---0---------------------------------------

0---------------0-----------0---2-------0-----2-0---------------

2---------------0---------------0---------------0---------------

 

G   /   /   /   G   /   /   /   C   /   /   /   C   /   /   /  

5-------5-----5-5---2-----------3-------7-----5-3---0-----------

3---------------3-------3-------0---------------0-------3-------

2---------------2---------------0---------------0---------------

0---------------0---------------0---------------0---------------

 

F   /   /   /   F   /   /   /   G   /   /   /   G   /   /   /  

3-------3-----2-0-------5-----3-2-----3-2---0-----------0---2---

1---------------1---------------3---------------3---3-----------

0---------------0---------------2---------------2---------------

2---------------2---------------0---------------0---------------

 

C   /   /   /   C   /   /   /   C   /   /   /   C   /   /   /  

3-------3-----2-3---------------3-------3-----2-3---------------

0---------------0---3---0-------0---------------0---3---0-------

0---------------0-----------0---0---------------0-----------0---

0---------------0---------------0---------------0---------------

 

F   /   /   /   C   /   /   /   G7  /   F   /   C   /   /   /  

--------0-------------------------------------------------------

1-------------1-0---3---0---------------------------------------

0---------------0-----------0---2-------0-----2-0---------------

2---------------0---------------0---------------0---------------

Mike Gradwell

Ukulele and Classical Guitar Tuition

Contact

​Tel:  01524 941548

​Mail: mike.gradwell@gmail.com

 

Follow Mike
  • w-facebook
  • w-youtube