She's Not There The Zombies

Intro Dm G   (x4)

​Dm                     G             Dm  G    Dm        G           Dm   G

       Well no one told me about her,       the way she lied

Dm                     G             Dm   G   Dm                   G         Dm  

       Well no one told me about her,       how many people cried.

 

                  G         Gm            Dm                         Am                            Dm

But it’s too late to say you’re sorry, how would I know,   why should I care?

                    G         Gm          F                            A7

Please don’t bother trying to find her, she’s not there

                                              Dm                     

Well let me tell you ‘bout the way she looked, 

G                     Dm            G                   Dm  

   The way she acted, the colour of her hair

G                        Dm                  G                        Dm  

    Her voice was soft and good,    her eyes were clear and bright,   

G                       D       D   (three taps)        

    But she’s not there

 

Instrumental   Dm G   (x4)

 

Dm  /   G   /   Dm  /   G   /   Dm  /   G7  /   Dm  /   G   /  

0-----0---------------------0-----------------------------------

1---1---3-1-----1-------3---------------1---------------3-------

2-2-----2---2---2-------2-------2-----2-2-2-----2-------2-------

2-------0-------2-------0-------2-------0-------2-------0-------

 

Dm  /   G   /   Dm  /   G   /   Dm  /   G7  /   Dm  /   /   /  

0-----0---------0-------3---5-----------------------------------

1---1---3-1-3---1-------3---------------1-----------------------

2-2-----2-------2-------2-------2---2-2-2-2-----2---------------

2-------0-------2-------0-------2-------0-------2---------------