She Sells Sanctuary (intro)

Intro                 

G   /   /   /   G   /   /   /   F   /   /   /   C   /   G   /   (x2) 

5-------3---2---3-2-----------------------------3-2-------------

3-------3---3---3---3---3-------1-------3-------0---3---3-------

2-------2---2---2-------2-------0-------0---2---0-------2-------

0-------0---0---0-------0-------2-------2-------0-------0-------

 

 

Riff 1

G   /   /   /   G   /   /   /   F   /   /   /   C   /   G   /   (x2) 

--------------------7-----------5---------------3-2-------------

X-----------------------X-----X-5-8-----8---8---0---3---3-------

7-------------------------------5---------------0-------2-------

7-------------------------------5---------------0-------0-------

Mike Gradwell

Ukulele and Classical Guitar Tuition

Contact

​Tel:  01524 941548

​Mail: mike.gradwell@gmail.com

 

Follow Mike
  • w-facebook
  • w-youtube