Since You've Been Gone Rainbow

Intro 

G   /   D   /   Em  /   C   /   G   /   D   Em  C   /   /   D

----------------------------------------------------------------

3-3-3---------------------------3-3-3---------------------------

2-2-2-----2-2---4-4-4-----0-0---2-2-2-----2---4---0---0-0-2-2---

0-0-0-----2-2---0-0-0-----0-0---0-0-0-----2---0---0---0-0-2-2---

 

G   /   D   /   Em  /   C   /   G   /   D   Em  C   /   D   /

----------------------------------------------------------------

3-3-3---------------------------3-3-3---------------------------

2-2-2-----2-2---4-4-4-----0-0---2-2-2-----2---4---0---0-2-------

0-0-0-----2-2---0-0-0-----0-0---0-0-0-----2---0---0---0-2-------

 

(tap for two bars)

Whoa, oh, oh, oh, oh, oh

 

G               D                        Em                 D               C                  Bm                Am         D

   I get the same old dreams    same time every night,  fall to the ground and I wake up

G              D                      Em                        D               C                     Bm              Am          D

   So I get out of bed, put on my shoes, and in my head   thoughts fly back to the break-up

Eb                                  F            Eb                                  F

    These four walls are closin' in,   look at the fix you've put me in.

 

G                                  D Em                               C       G              D                Em        C D

Since you've been gone, since you've been gone   I’m out of my head, can’t take it.

G                         D       Em                                C  G                   D          Em        C D

Could I be wrong,  but since you've been gone    you've cast a spell so break it.

 

G    D     Em  C    G D       Em          C                  D                  

Oooooh Oooooh Oooooh     since you’ve been gone.

Mike Gradwell

Ukulele and Classical Guitar Tuition

Contact

​Tel:  01524 941548

​Mail: mike.gradwell@gmail.com

 

Follow Mike
  • w-facebook
  • w-youtube