The Six O' Clock Whistle

"C’mon everybody we must be getting back. We mustn’t be late for the six o’clock whistle".

Intro whistle
C / / C / / C / / C / /
3---2-0---2-3---2-0---2-
0-----0-----0-----0-----
0-----0-----0-----0-----
0-----0-----0-----0-----

C / / C / / C / / C / / C / / C / / G / / G / / --------0-2-3-2-0-------0-----0-------0-1-2-----

3-0-1-3-----0-----3-----0-3-0-0-3-0-3-----3-----

0-----0-----0-----0-----0-----0-----2-----2-----

0-----0-----0-----0-----0-----0-----0-----0-----


G / / G / / C / / C / / D7/ / D7/ / G / / G / /
------------------------3-2-----2-3-2-3-4-5-----
3-1-0---3-1-0-1-2-3-----2---5-5-----3-----3-----
2-----2-----0-----0-----2-----2-----2-----2-----
0-----0-----0-----0-----2-----2-----0-----0-----

C / / C / / C / / C / / C / / C / / G / / G / /
--------0-2-3-2-0-------0-----0-------0-1-2-----
3-0-1-3-----0-----3-----0-3-0-0-3-0-3-----3-----
0-----0-----0-----0-----0-----0-----2-----2-----
0-----0-----0-----0-----0-----0-----0-----0-----


G / / G / / C / / C / / D7/ / G / / C / / C
--------------------0-2-3-2---2-3-5-3-------
3-1-0---3-1-0-1-2-3-----2---5-3-----0-3-0---
2-----2-----0-----0-----2-----2-----0-----0-
0-----0-----0-----0-----2-----0-----0-----0-

Mike Gradwell

Ukulele and Classical Guitar Tuition

Contact

​Tel:  01524 941548

​Mail: mike.gradwell@gmail.com

 

Follow Mike
  • w-facebook
  • w-youtube