Somebody That I Used To Know (intro)

Intro Dm C Dm C

Dm  /   C   /   Dm  /   C   /   Dm  /   C   /   Dm  /   C    

0---0-----------0-1-3-0---------------------------------------

1-------3---3---1-------3-------1---1---0---0-----------------

2-------0---------------0-------2-------0-------2---2---0-----

2-------0---------------0-------2-------0-------2-------0-----

 

Dm  /   C   /   Dm  /   C   /   Dm  /   C   /   Dm  /   C    

0---0-----------0-1-3-0---------------------------------------

1-------3---3---1-------3-------1---1-------0-----------------

2-------0---------------0-------2---2-------0---2---2---------

2-------0---------------0-------2---2-------0---2---2---------