Somewhere Only we Know (instrumental)

C   /   /   /   Cmaj7   /   /   Dm  /   /   /   G7sus4  G7  /

3---------------2---------------0---------------3---------------

0---3-3-0-------0---3-3-0-------1-1-1-1-1-1-1-1-1-0---0-1---0---

0-0-------------0-0-------------2---------------2---2---2-------

0---------------0---------------2---------------0-------0-------

 

C   /   /   /   Cmaj7   /   /   Dm  /   /   /   G7sus4  G7  /

3---------------2---------------0-------------------------------

0---3-3-0-------0---3-3-0-------1-1-1-1-1-1-1-1-1-0-----1---0---

0-0-------------0-0-------------2---------------2---2---2-------

0---------------0---------------2---------------0-------0-------

 

C   /   /   /   Cmaj7   /   /   Dm  /   /   /   G7sus4  G7  /

3---------------2---------------0-------------------------------

0---3-3-0-------0---3-3-0-------1-1-1-1-1-1-1-1-1-0-----1---0---

0-0-------------0-0-------------2---------------2---2---2-------

0---------------0---------------2---------------0-------0-------

 

Am  /   /   /   Em  /   /   /   Dm  /   /   /   G7sus4  G7  /

0---3-3-0-------2---------------0-------------------------------

0-0-----0-------3---3-3---------1-1-1-1-1-1-1-1-1-0---0-1---0---

0-------0-------4-4-----4-------2---------------2---2---2-------

2-------2-------0-------0-------2---------------0-------0-------

 

C   /   /   /   Cmaj7   /   /   Dm  /   /   /   G7sus4  G7  /

3---------------2---------------0-------------------------------

0---3-3-0-------0---3-3-0-------1-1-1-1-1-1-1-1-1-0-----1---0---

0-0-------------0-0-------------2---------------2---2---2-------

0---------------0---------------2---------------0-------0-------

 

C   /   /   /   Cmaj7   /   /   Dm  /   /   /   G7sus4  G7  /

3---------------2---------------0-------------------------------

0---3-3-0-------0---3-3-0-------1-1-1-1-1-1-1-1-1-0-----1---0---

0-0-------------0-0-------------2---------------2---2---2-------

0---------------0---------------2---------------0-------0-------

 

Am  /   /   /   Em  /   /   /   Dm  /   /   /   G7sus4  G7  /

0---3-3-0-------2---------------0-------------------------------

0-0-----0-------3---3-3---------1-1-1-1-1-1-1-1-1-0---0-1---0---

0-------0-------4-4-----4-------2---------------2---2---2-------

2-------2-------0-------0-------2---------------0-------0-------

 

Dm  /   /   /   Em  /   /   /   Dm  /   /   /   Em  /   /   /  

--------3-2-2-0-------------------------3-2-2-0-----------------

----------------------3-------------------------------3---------

2-----2-2-------4-2-4---4---2---2-----2-2-------4-2-4---4---2---

2-------2-------0-------0-------2-------2-------0-------0-------

Dm  /   /   /   Em  /   /   /   Dm  /   /   /   Em  /   /   /  

--------3-2-2-0-------------------------------------------------

----------------------3-------------3-----------------3---------

2-----2-2-------4-2-4---4---2---4-2-----4---2---4-2-4---4---2---

2-------2-------0-------0-------2-------2-------0-------0-------

 

Gsus4   F   /   C   /   /   /   Cmaj7   /   /   Dm  /   /   /   

----------------3---------------2---------------0---------------

------3---------0---3-3-0-------0---3-3-0-------1-1-1-1-1-1-1-1-

4-2-4---2---0---0-0-------------0-0-------------2---------------

0-------2-------0---------------0---------------2---------------

 

G7sus4  G7  /   Am  /   /   /   Em  /   /   /   Dm  /   /   /   

----------------0---3-3-0-------2---------------0---------------

1-0---0-1---0---0-0-----0-------3---3-3---------1-1-1-1-1-1-1-1-

2---2---2-------0-------0-------4-4-----4-------2---------------

0-------0-------2-------2-------0-------0-------2---------------

 

G7sus4  G7  /   Am  /   /   /   Em  /   /   /   Dm  /   /   /   

----------------0---3-3-0-------2---------------0---------------

1-0---0-1---0---0-0-----0-------3---3-3---------1-1-1-1-1-1-1-1-

2---2---2-------0-------0-------4-4-----4-------2---------------

0-------0-------2-------2-------0-------0-------2---------------

 

G7sus4  G7  /   Dm  /   /   /   Em  /   /   /   Dm  /   /   /   

------------------------3-2-2-0-------------------------3-2-2-0-

1-0---0-1---0-------------------------3-------------------------

2---2---2-------2-----2-2-------4-2-4---4---2---2-----2-2-------

0-------0-------2-------2-------0-------0-------2-------2-------

 

Em  /   /   /   Dm  /   /   /   Em  /   /   /   F   /   /   /   

------------------------3-2-2-0----------------------------------

------3-------------------------------3---------0-----3-0--------

4-2-4---4---2---2-----2-2-------4-2-4---4---2---0-2-----0---2----

0-------0-------2-------2-------0-------0-------2-------2--------

 

Em  /   Dm  /   Gsus4   F   /   C   /   

--------------------------------3-------

------3---------------3---------0-------

4-2-4---4-2-----4-2-4---2---0---0-------

0-------2-------0-------0-------0-------

Mike Gradwell

Ukulele and Classical Guitar Tuition

Contact

​Tel:  01524 941548

​Mail: mike.gradwell@gmail.com

 

Follow Mike
  • w-facebook
  • w-youtube