Spiderman instrumental

Dm  /   /   /   Dm  /   /   /   Dm  /   /   /   Dm  /   /   /
--------0-------------------------------0-1-2-------------------
----1---1-------3---1---------------1---1-------3---1-----------
2-------2-------2-------2-------2-------2-------2-------2-------
2-------2-------2-------2-------2-------2-------2-------2-------

 

Gm  /   /   /   Gm  /   /   /   Dm  /   /   /   Dm  /   /   /
----1---5-------3---1-------------------0-------------------0---
3-------3-------3-------3-----------1---1-------3---1-----------
2-------2-------2-------2-------2-------2-------2-------2-------
0-------0-------0-------0-------2-------2-------2-------2-------

 

A7  /   /   /   A7  /   /   /   Dm  /   /   /   Dm  /   /   /
0---0---0---0---------------------------------------------------
0---0---0---0---3-3---1-3---1-------1-------1-------1-------1---
1---1---1---1---1---------------2-------2-------2-------2-------
0---0---0---0---0---------------2-------2-------2-------2-------

 

Dm  /   /   /   Dm  /   /   /   Dm  /   /   /   Dm  /   /   /
--------0-------------------------------0-1-2-------------------
----1---1-------3---1---------------1---1-------3---1-----------
2-------2-------2-------2-------2-------2-------2-------2-------
2-------2-------2-------2-------2-------2-------2-------2-------

 

Gm  /   /   /   Gm  /   /   /   Dm  /   /   /   Dm  /   /   /
----1---5-------3---1-------------------0-------------------0---
3-------3-------3-------3-----------1---1-------3---1-----------
2-------2-------2-------2-------2-------2-------2-------2-------
0-------0-------0-------0-------2-------2-------2-------2-------

 

A7  /   /   /   A7  /   /   /   Dm  /   /   /   Dm  /   /   /
0---0---0---0-------------------------------------------0---1---
0---0---0---0---3-3---1-3---1-------1-------1-------1-----------
1---1---1---1---1---------------2-------2-------2---------------
0---0---0---0---0---------------2-------2-------2---------------

 

C7  /   /   /   F   /   /   /   A7  /   /   /   Dm  /   /   /
3-----------1---0-------------------------------0-------0---1---
0---------------1-------3---1---3-------1---3---1---------------
0---------------0---------------1---------------2---------------
0---------------2---------------0---------------2---------------

 

C7  /   /   /   F   /   /   /   Bb7 /   /   /   A7  /   /   /
3-----------1---0-------------------------------0---------------
0---------------1-------3---1---3-------1---3---0---3---1---0---
0---------------0---------------2---------------1---------------
0---------------2---------------1---------------0---------------

 

Dm  /   /   /   Dm  /   /   /   Dm  /   /   /   Dm  /   /   /
--------0-------------------------------0-1-2-------------------
----1---1-------3---1---------------1---1-------3---1-----------
2-------2-------2-------2-------2-------2-------2-------2-------
2-------2-------2-------2-------2-------2-------2-------2-------

 

Gm  /   /   /   Gm  /   /   /   Dm  /   /   /   Dm  /   /   /
----1---5-------3---1-------------------0-------------------0---
3-------3-------3-------3-----------1---1-------3---1-----------
2-------2-------2-------2-------2-------2-------2-------2-------
0-------0-------0-------0-------2-------2-------2-------2-------

 

A7  /   /   /   A7  /   /   /   Dm  /   /   /   A7  /   /   /
0---0---0---0---------------------------------------------------
0---0---0---0---3-3---1-3---1-----------1-------3-3---1-3---1---
1---1---1---1---1---------------2---------------1---------------
0---0---0---0---0---------------2---------------0---------------

 

Dm  /   /   /   A7  /   /   /   Dmaj7/  /   /
----------------------------0---7---------------
--------1-------3-3---1-3-------5---------------
2---------------1---------------5---------------
2---------------0---------------5---------------

Mike Gradwell

Ukulele and Classical Guitar Tuition

Contact

​Tel:  01524 941548

​Mail: mike.gradwell@gmail.com

 

Follow Mike
  • w-facebook
  • w-youtube