Stand By Me (Instrumental)

C / / / C / / / Am/ / / Am/ / / F / / / G / / / C / / / C / / /

3-----5-75--3-2-0-----2-3-------0-----3-5---3-5-7---------------

0-------0-------0-------0-------1-------3-------0---------------

0-------0-------0-------0-------0-------2-------0---------------

0-------0-------2-------2-------2-------0-------0---------------

 

C / / / C / / / Am/ / / Am/ / / F / / / G / / / C / / / C / / /

3-----5-75--3-2-0-----2-3-------0-----3-5---3-5-3---------------

0-------0-------0-------0-------1-------3-------0---------------

0-------0-------0-------0-------0-------2-------0---------------

0-------0-------2-------2-------2-------0-------0---------------

Mike Gradwell

Ukulele and Classical Guitar Tuition

Contact

​Tel:  01524 941548

​Mail: mike.gradwell@gmail.com

 

Follow Mike
  • w-facebook
  • w-youtube