Star Wars

F     /     /     /     /     /     /     /     /     C     /

------------------8-----------------8-----------------------------

------8-----6-5---5-----8-----6-5---5-----8-----6-5-6-------------

5-----5---------7-5-----5---------7-5-----5-----------7-----------

5-----5-----------5-----5-----------5-----5-----------5-----------

 

F     /     /     /     /     /     /     /     /     C     /

------------------8-----------------8-----------------------------

------8-----6-5---5-----8-----6-5---5-----8-----6-5-6-------------

5-----5---------7-5-----5---------7-5-----5-----------7---------0-

5-----5-----------5-----5-----------5-----5-----------5-----------

 

Gm      /       F       C       Gm      /       C       /       

--------1-0--------0--------------------1-0-----3---------------

------------3-1-1-3-3—--0-------------------3-1-0---3-----------

2-----2-2-------0-----2-0-----0-2-----2-2-------0-------------0-

0-------0-------2-------0-------0-------0-------0---------------

 

Gm      /       F       C       C#      D#      C       /        

--------1-0--------0------------8-------------------------------

------------3-1-1-3-3—--0---8-8-9-Y-9---9-8-6---8-8---888-8---88

2-----2-2-------0-----2-0-------8-------7-------0-------0-------

0-------0-------2-------0-----------------------0-------0-------

 

/       /       /       /

--------------------------------

8-------------------------------

0-------------------------------

0-------------------------------

Mike Gradwell

Ukulele and Classical Guitar Tuition

Contact

​Tel:  01524 941548

​Mail: mike.gradwell@gmail.com

 

Follow Mike
  • w-facebook
  • w-youtube